  0
SECTION
  2
HEADER
  9
$ACADVER
  1
AC1009
  9
$INSBASE
 10
0.0
 20
0.0
 30
0.0
  9
$EXTMIN
 10
0.0
 20
0.0
 30
0.0
  9
$EXTMAX
 10
0.0
 20
0.0
 30
0.0
  0
ENDSEC
  0
SECTION
  2
TABLES
  0
TABLE
  2
VPORT
 70
0
  0
ENDTAB
  0
TABLE
  2
LTYPE
 70
1
  0
LTYPE
  2
CONTINUOUS
 70
0
  3
Solid line
 72
65
 73
0
 40
0.0
  0
ENDTAB
  0
TABLE
  2
LAYER
 70
1
  0
LAYER
  2
0
 70
64
 62
7
  6
continuous
  0
ENDTAB
  0
TABLE
  2
STYLE
 70
1
  0
STYLE
  2
STANDARD
 70
0
 40
0
 41
1.0
 50
0.0
 71
0
 42
1
 3
ARIAL.TTF
 4

  0
ENDTAB
  0
TABLE
  2
VIEW
 70
0
  0
ENDTAB
  0
ENDSEC
  0
SECTION
  2
BLOCKS
  0
BLOCK
  8
0
  2
PAD
 70
0
 10
0.0
 20
0.0
 30
0.0
  3
PAD
  0
LINE
  8
0
 62
0
 10
-12.373338688
 20
13.0667328963
 30
0.0
 11
-12.373338688
 21
-1.22076710366
 31
0.0
  0
LINE
  8
0
 62
0
 10
-12.373338688
 20
-1.22076710366
 30
0.0
 11
0.0
 21
-8.36451583671
 31
0.0
  0
LINE
  8
0
 62
0
 10
0.0
 20
-8.36451583671
 30
0.0
 11
12.373338688
 21
-1.22076710366
 31
0.0
  0
LINE
  8
0
 62
0
 10
12.373338688
 20
-1.22076710366
 30
0.0
 11
12.373338688
 21
13.0667328963
 31
0.0
  0
LINE
  8
0
 62
0
 10
12.373338688
 20
13.0667328963
 30
0.0
 11
13.6386205932
 21
14.9025809495
 31
0.0
  0
LINE
  8
0
 62
0
 10
13.6386205932
 20
14.9025809495
 30
0.0
 11
15.3033994077
 21
12.9362045651
 31
0.0
  0
LINE
  8
0
 62
0
 10
15.3033994077
 20
12.9362045651
 30
0.0
 11
15.3033994077
 21
-4.65646381351
 31
0.0
  0
LINE
  8
0
 62
0
 10
15.3033994077
 20
-4.65646381351
 30
0.0
 11
5.47592565814
 21
-19.0283771802
 31
0.0
  0
LINE
  8
0
 62
0
 10
5.47592565814
 20
-19.0283771802
 30
0.0
 11
5.47592565814
 21
-36.3202519528
 31
0.0
  0
ARC
  8
0
 62
0
 10
1.55431223448e-15
 20
-36.6638434681
 30
0.0
 40
5.48669453704
 50
174.654161047
 51
3.59036453055
  0
LINE
  8
0
 62
0
 10
-5.4628300456
 20
-18.8607888487
 30
0.0
 11
-5.4628300456
 21
-36.1526636213
 31
0.0
  0
LINE
  8
0
 62
0
 10
-15.3440785767
 20
-4.52579454859
 30
0.0
 11
-5.4628300456
 21
-18.8607888487
 31
0.0
  0
LINE
  8
0
 62
0
 10
-15.3440785767
 20
12.8047114422
 30
0.0
 11
-15.3440785767
 21
-4.52579454859
 31
0.0
  0
LINE
  8
0
 62
0
 10
-13.7447734531
 20
14.8246984986
 30
0.0
 11
-15.3440785767
 21
12.8047114422
 31
0.0
  0
LINE
  8
0
 62
0
 10
-12.373338688
 20
13.0667328963
 30
0.0
 11
-13.7447734531
 21
14.8246984986
 31
0.0
  0
ENDBLK
  0
ENDSEC
  0
SECTION
  2
ENTITIES
  0
INSERT
  2
PAD
  8
0
 10
0.0
 20
0.0
 30
0.0
  0
ENDSEC
  0
EOF
